ISO-10303-21;
HEADER;
FILE_DESCRIPTION (( 'STEP AP214' ),
    '1' );
FILE_NAME ('FULLVAC JF1CF160.STEP',
    '2019-03-29T13:50:56',
    ( '' ),
    ( '' ),
    'SwSTEP 2.0',
    'SolidWorks 2017',
    '' );
FILE_SCHEMA (( 'AUTOMOTIVE_DESIGN' ));
ENDSEC;

DATA;
#1 = CONICAL_SURFACE ( 'NONE', #250, 85.04151372152242100, 1.247910413749998100 ) ;
#2 = DIRECTION ( 'NONE',  ( 1.000000000000000000, 0.0000000000000000000, 0.0000000000000000000 ) ) ;
#3 = ORIENTED_EDGE ( 'NONE', *, *, #149, .T. ) ;
#4 = CARTESIAN_POINT ( 'NONE',  ( -1.250000001598141400, 0.0000000000000000000, 0.0000000000000000000 ) ) ;
#5 = CARTESIAN_POINT ( 'NONE',  ( 0.0000000000000000000, 0.0000000000000000000, 0.0000000000000000000 ) ) ;
#6 = ADVANCED_FACE ( 'NONE', ( #125, #18 ), #76, .T. ) ;
#7 = AXIS2_PLACEMENT_3D ( 'NONE', #93, #217, #136 ) ;
#8 = ORIENTED_EDGE ( 'NONE', *, *, #205, .F. ) ;
#9 = DIRECTION ( 'NONE',  ( -1.000000000000000000, -0.0000000000000000000, -0.0000000000000000000 ) ) ;
#10 = DIRECTION ( 'NONE',  ( 0.0000000000000000000, 0.0000000000000000000, -1.000000000000000000 ) ) ;
#11 = CARTESIAN_POINT ( 'NONE',  ( 0.0000000000000000000, 0.0000000000000000000, 0.0000000000000000000 ) ) ;
#12 = CARTESIAN_POINT ( 'NONE',  ( -1.600000000189975000, 0.0000000000000000000, 0.0000000000000000000 ) ) ;
#13 = EDGE_LOOP ( 'NONE', ( #59 ) ) ;
#14 = DIRECTION ( 'NONE',  ( 1.000000000000000000, 0.0000000000000000000, 0.0000000000000000000 ) ) ;
#15 = STYLED_ITEM ( 'NONE', ( #194 ), #248 ) ;
#16 = AXIS2_PLACEMENT_3D ( 'NONE', #11, #140, #63 ) ;
#17 = DIRECTION ( 'NONE',  ( 0.0000000000000000000, 0.0000000000000000000, -1.000000000000000000 ) ) ;
#18 = FACE_BOUND ( 'NONE', #123, .T. ) ;
#19 = CARTESIAN_POINT ( 'NONE',  ( 1.250000001598139800, 0.0000000000000000000, -85.04151372152242100 ) ) ;
#20 = PRESENTATION_STYLE_ASSIGNMENT (( #39 ) ) ;
#21 = FACE_BOUND ( 'NONE', #40, .T. ) ;
#22 = AXIS2_PLACEMENT_3D ( 'NONE', #201, #241, #172 ) ;
#23 = ORIENTED_EDGE ( 'NONE', *, *, #149, .F. ) ;
#24 = DIRECTION ( 'NONE',  ( 2.549818612203543300E-018, 0.0000000000000000000, -1.000000000000000000 ) ) ;
#25 = PRESENTATION_LAYER_ASSIGNMENT (  '', '', ( #15 ) ) ;
#26 = DIRECTION ( 'NONE',  ( 1.000000000000000000, 0.0000000000000000000, 1.274909306101771900E-018 ) ) ;
#27 = CIRCLE ( 'NONE', #7, 82.79999999967093100 ) ;
#28 = SURFACE_STYLE_FILL_AREA ( #104 ) ;
#29 = EDGE_LOOP ( 'NONE', ( #3 ) ) ;
#30 = DIRECTION ( 'NONE',  ( 0.0000000000000000000, 0.0000000000000000000, -1.000000000000000000 ) ) ;
#31 = CARTESIAN_POINT ( 'NONE',  ( -0.4999999998100135300, 0.0000000000000000000, 0.0000000000000000000 ) ) ;
#32 =( NAMED_UNIT ( * ) PLANE_ANGLE_UNIT ( ) SI_UNIT ( $, .RADIAN. ) );
#33 = ORIENTED_EDGE ( 'NONE', *, *, #225, .F. ) ;
#34 =( LENGTH_UNIT ( ) NAMED_UNIT ( * ) SI_UNIT ( .MILLI., .METRE. ) );
#35 = EDGE_CURVE ( 'NONE', #41, #41, #230, .T. ) ;
#36 = CARTESIAN_POINT ( 'NONE',  ( 1.600000000000000100, 0.0000000000000000000, 0.0000000000000000000 ) ) ;
#37 =( GEOMETRIC_REPRESENTATION_CONTEXT ( 3 ) GLOBAL_UNCERTAINTY_ASSIGNED_CONTEXT ( ( #229 ) ) GLOBAL_UNIT_ASSIGNED_CONTEXT ( ( #171, #166, #196 ) ) REPRESENTATION_CONTEXT ( 'NONE', 'WORKASPACE' ) );
#38 = ORIENTED_EDGE ( 'NONE', *, *, #87, .F. ) ;
#39 = SURFACE_STYLE_USAGE ( .BOTH. , #191 ) ;
#40 = EDGE_LOOP ( 'NONE', ( #94 ) ) ;
#41 = VERTEX_POINT ( 'NONE', #88 ) ;
#42 = AXIS2_PLACEMENT_3D ( 'NONE', #197, #199, #10 ) ;
#43 = DIRECTION ( 'NONE',  ( -1.000000000000000000, -0.0000000000000000000, 0.0000000000000000000 ) ) ;
#44 = ADVANCED_FACE ( 'NONE', ( #71, #112 ), #233, .T. ) ;
#45 = CIRCLE ( 'NONE', #209, 78.00000000000000000 ) ;
#46 = DIRECTION ( 'NONE',  ( 1.000000000000000000, 0.0000000000000000000, -0.0000000000000000000 ) ) ;
#47 = DIRECTION ( 'NONE',  ( 1.000000000000000000, 0.0000000000000000000, 0.0000000000000000000 ) ) ;
#48 = ORIENTED_EDGE ( 'NONE', *, *, #108, .T. ) ;
#49 = CARTESIAN_POINT ( 'NONE',  ( -1.600000000189975000, 0.0000000000000000000, -82.16491470422047900 ) ) ;
#50 = FACE_OUTER_BOUND ( 'NONE', #211, .T. ) ;
#51 = AXIS2_PLACEMENT_3D ( 'NONE', #5, #129, #2 ) ;
#52 =( NAMED_UNIT ( * ) SI_UNIT ( $, .STERADIAN. ) SOLID_ANGLE_UNIT ( ) );
#53 = CIRCLE ( 'NONE', #193, 85.54999999999999700 ) ;
#54 = ORIENTED_EDGE ( 'NONE', *, *, #210, .F. ) ;
#55 = COLOUR_RGB ( '',0.3215686274509803600, 0.3215686274509803600, 0.3215686274509803600 ) ;
#56 = AXIS2_PLACEMENT_3D ( 'NONE', #31, #9, #222 ) ;
#57 = EDGE_LOOP ( 'NONE', ( #118 ) ) ;
#58 = EDGE_CURVE ( 'NONE', #160, #160, #27, .T. ) ;
#59 = ORIENTED_EDGE ( 'NONE', *, *, #81, .T. ) ;
#60 = DIRECTION ( 'NONE',  ( 0.0000000000000000000, 0.0000000000000000000, -1.000000000000000000 ) ) ;
#61 = CARTESIAN_POINT ( 'NONE',  ( -0.4999999998100224100, 0.0000000000000000000, 0.0000000000000000000 ) ) ;
#62 = UNCERTAINTY_MEASURE_WITH_UNIT (LENGTH_MEASURE( 1.000000000000000100E-005 ), #34, 'distance_accuracy_value', 'NONE');
#63 = DIRECTION ( 'NONE',  ( 0.0000000000000000000, 0.0000000000000000000, -1.000000000000000000 ) ) ;
#64 = CARTESIAN_POINT ( 'NONE',  ( 0.6250000000000000000, 0.0000000000000000000, 0.0000000000000000000 ) ) ;
#65 = EDGE_LOOP ( 'NONE', ( #101 ) ) ;
#66 = DIRECTION ( 'NONE',  ( 0.0000000000000000000, 0.0000000000000000000, -1.000000000000000000 ) ) ;
#67 = CARTESIAN_POINT ( 'NONE',  ( -0.4999999998100196900, 82.79999999967093100, 0.0000000000000000000 ) ) ;
#68 = EDGE_LOOP ( 'NONE', ( #38 ) ) ;
#69 = CARTESIAN_POINT ( 'NONE',  ( 1.600000000189975200, 0.0000000000000000000, 82.16491470422047900 ) ) ;
#70 = AXIS2_PLACEMENT_3D ( 'NONE', #238, #119, #223 ) ;
#71 = FACE_BOUND ( 'NONE', #57, .T. ) ;
#72 = AXIS2_PLACEMENT_3D ( 'NONE', #64, #141, #30 ) ;
#73 = FACE_OUTER_BOUND ( 'NONE', #181, .T. ) ;
#74 = APPLICATION_PROTOCOL_DEFINITION ( 'draft international standard', 'automotive_design', 1998, #77 ) ;
#75 = CARTESIAN_POINT ( 'NONE',  ( 1.600000000000000100, 80.08245735194570600, 0.0000000000000000000 ) ) ;
#76 = CONICAL_SURFACE ( 'NONE', #218, 82.79999999967093100, 0.5235987750000007400 ) ;
#77 = APPLICATION_CONTEXT ( 'automotive_design' ) ;
#78 = DIRECTION ( 'NONE',  ( 0.0000000000000000000, 0.0000000000000000000, -1.000000000000000000 ) ) ;
#79 = ADVANCED_FACE ( 'NONE', ( #89, #21 ), #213, .F. ) ;
#80 = CARTESIAN_POINT ( 'NONE',  ( -1.600000000000000100, 0.0000000000000000000, 0.0000000000000000000 ) ) ;
#81 = EDGE_CURVE ( 'NONE', #106, #106, #151, .T. ) ;
#82 = CYLINDRICAL_SURFACE ( 'NONE', #72, 85.54999999999999700 ) ;
#83 = SHAPE_DEFINITION_REPRESENTATION ( #161, #200 ) ;
#84 = DIRECTION ( 'NONE',  ( -1.000000000000000000, 0.0000000000000000000, 0.0000000000000000000 ) ) ;
#85 = PLANE ( 'NONE',  #42 ) ;
#86 = EDGE_LOOP ( 'NONE', ( #147 ) ) ;
#87 = EDGE_CURVE ( 'NONE', #110, #110, #105, .T. ) ;
#88 = CARTESIAN_POINT ( 'NONE',  ( -1.250000001598141400, 0.0000000000000000000, 85.04151372152242100 ) ) ;
#89 = FACE_OUTER_BOUND ( 'NONE', #165, .T. ) ;
#90 = FACE_OUTER_BOUND ( 'NONE', #13, .T. ) ;
#91 = FACE_BOUND ( 'NONE', #227, .T. ) ;
#92 = DIRECTION ( 'NONE',  ( 0.0000000000000000000, 0.0000000000000000000, 1.000000000000000000 ) ) ;
#93 = CARTESIAN_POINT ( 'NONE',  ( 0.4999999998100135300, 0.0000000000000000000, 0.0000000000000000000 ) ) ;
#94 = ORIENTED_EDGE ( 'NONE', *, *, #58, .F. ) ;
#95 = VERTEX_POINT ( 'NONE', #19 ) ;
#96 = EDGE_CURVE ( 'NONE', #116, #116, #115, .T. ) ;
#97 = DIRECTION ( 'NONE',  ( 0.0000000000000000000, 0.0000000000000000000, -1.000000000000000000 ) ) ;
#98 = VERTEX_POINT ( 'NONE', #49 ) ;
#99 = ADVANCED_FACE ( 'NONE', ( #73, #150 ), #198, .F. ) ;
#100 = MECHANICAL_DESIGN_GEOMETRIC_PRESENTATION_REPRESENTATION (  '', ( #224 ), #37 ) ;
#101 = ORIENTED_EDGE ( 'NONE', *, *, #96, .F. ) ;
#102 = SURFACE_STYLE_FILL_AREA ( #214 ) ;
#103 = CARTESIAN_POINT ( 'NONE',  ( 1.600000000000000100, 0.0000000000000000000, -78.00000000000000000 ) ) ;
#104 = FILL_AREA_STYLE ('',( #247 ) ) ;
#105 = CIRCLE ( 'NONE', #170, 85.54999999999999700 ) ;
#106 = VERTEX_POINT ( 'NONE', #67 ) ;
#107 = ORIENTED_EDGE ( 'NONE', *, *, #35, .F. ) ;
#108 = EDGE_CURVE ( 'NONE', #244, #244, #53, .T. ) ;
#109 = EDGE_LOOP ( 'NONE', ( #54 ) ) ;
#110 = VERTEX_POINT ( 'NONE', #182 ) ;
#111 = PRODUCT_DEFINITION_FORMATION_WITH_SPECIFIED_SOURCE ( 'ANY', '', #221, .NOT_KNOWN. ) ;
#112 = FACE_OUTER_BOUND ( 'NONE', #29, .T. ) ;
#113 = PRESENTATION_LAYER_ASSIGNMENT (  '', '', ( #224 ) ) ;
#114 = DIRECTION ( 'NONE',  ( 1.000000000000000000, -0.0000000000000000000, 0.0000000000000000000 ) ) ;
#115 = CIRCLE ( 'NONE', #186, 78.00000000000000000 ) ;
#116 = VERTEX_POINT ( 'NONE', #124 ) ;
#117 = DIRECTION ( 'NONE',  ( -1.000000000000000000, -0.0000000000000000000, -0.0000000000000000000 ) ) ;
#118 = ORIENTED_EDGE ( 'NONE', *, *, #225, .T. ) ;
#119 = DIRECTION ( 'NONE',  ( -1.000000000000000000, 0.0000000000000000000, 0.0000000000000000000 ) ) ;
#120 = DIRECTION ( 'NONE',  ( 0.0000000000000000000, 0.0000000000000000000, 1.000000000000000000 ) ) ;
#121 = CARTESIAN_POINT ( 'NONE',  ( 0.4999999998100203600, 82.79999999967093100, 0.0000000000000000000 ) ) ;
#122 = AXIS2_PLACEMENT_3D ( 'NONE', #4, #131, #92 ) ;
#123 = EDGE_LOOP ( 'NONE', ( #23 ) ) ;
#124 = CARTESIAN_POINT ( 'NONE',  ( -1.600000000000000100, 0.0000000000000000000, -78.00000000000000000 ) ) ;
#125 = FACE_OUTER_BOUND ( 'NONE', #143, .T. ) ;
#126 = EDGE_LOOP ( 'NONE', ( #159 ) ) ;
#127 = FACE_BOUND ( 'NONE', #176, .T. ) ;
#128 = PRODUCT_CONTEXT ( 'NONE', #135, 'mechanical' ) ;
#129 = DIRECTION ( 'NONE',  ( 0.0000000000000000000, 0.0000000000000000000, 1.000000000000000000 ) ) ;
#130 = DIRECTION ( 'NONE',  ( 0.0000000000000000000, 0.0000000000000000000, 1.000000000000000000 ) ) ;
#131 = DIRECTION ( 'NONE',  ( 1.000000000000000000, 0.0000000000000000000, -0.0000000000000000000 ) ) ;
#132 = ORIENTED_EDGE ( 'NONE', *, *, #58, .T. ) ;
#133 = COLOUR_RGB ( '',0.3215686274509803600, 0.3215686274509803600, 0.3215686274509803600 ) ;
#134 = AXIS2_PLACEMENT_3D ( 'NONE', #167, #26, #24 ) ;
#135 = APPLICATION_CONTEXT ( 'automotive_design' ) ;
#136 = DIRECTION ( 'NONE',  ( 8.249364355900753800E-017, 1.000000000000000000, 0.0000000000000000000 ) ) ;
#137 = CARTESIAN_POINT ( 'NONE',  ( 1.600000000189975200, 0.0000000000000000000, 0.0000000000000000000 ) ) ;
#138 = FACE_OUTER_BOUND ( 'NONE', #207, .T. ) ;
#139 = CIRCLE ( 'NONE', #22, 85.04151372152242100 ) ;
#140 = DIRECTION ( 'NONE',  ( 1.000000000000000000, 0.0000000000000000000, 0.0000000000000000000 ) ) ;
#141 = DIRECTION ( 'NONE',  ( 1.000000000000000000, 0.0000000000000000000, 0.0000000000000000000 ) ) ;
#142 = DIRECTION ( 'NONE',  ( 0.0000000000000000000, 0.0000000000000000000, -1.000000000000000000 ) ) ;
#143 = EDGE_LOOP ( 'NONE', ( #132 ) ) ;
#144 = SURFACE_STYLE_USAGE ( .BOTH. , #245 ) ;
#145 = FACE_BOUND ( 'NONE', #109, .T. ) ;
#146 = FACE_OUTER_BOUND ( 'NONE', #185, .T. ) ;
#147 = ORIENTED_EDGE ( 'NONE', *, *, #81, .F. ) ;
#148 = FACE_BOUND ( 'NONE', #86, .T. ) ;
#149 = EDGE_CURVE ( 'NONE', #188, #188, #239, .T. ) ;
#150 = FACE_OUTER_BOUND ( 'NONE', #65, .T. ) ;
#151 = CIRCLE ( 'NONE', #56, 82.79999999967093100 ) ;
#152 = ADVANCED_FACE ( 'NONE', ( #145, #90 ), #187, .T. ) ;
#153 = DIRECTION ( 'NONE',  ( 0.0000000000000000000, 0.0000000000000000000, -1.000000000000000000 ) ) ;
#154 = PLANE ( 'NONE',  #234 ) ;
#155 = CARTESIAN_POINT ( 'NONE',  ( 1.250000000000000000, 0.0000000000000000000, 0.0000000000000000000 ) ) ;
#156 = EDGE_LOOP ( 'NONE', ( #163 ) ) ;
#157 = DIRECTION ( 'NONE',  ( 0.0000000000000000000, 0.0000000000000000000, 1.000000000000000000 ) ) ;
#158 = DIRECTION ( 'NONE',  ( 0.0000000000000000000, 0.0000000000000000000, 1.000000000000000000 ) ) ;
#159 = ORIENTED_EDGE ( 'NONE', *, *, #108, .F. ) ;
#160 = VERTEX_POINT ( 'NONE', #121 ) ;
#161 = PRODUCT_DEFINITION_SHAPE ( 'NONE', 'NONE',  #249 ) ;
#162 = PRODUCT_DEFINITION_CONTEXT ( 'detailed design', #77, 'design' ) ;
#163 = ORIENTED_EDGE ( 'NONE', *, *, #205, .T. ) ;
#164 =( GEOMETRIC_REPRESENTATION_CONTEXT ( 3 ) GLOBAL_UNCERTAINTY_ASSIGNED_CONTEXT ( ( #62 ) ) GLOBAL_UNIT_ASSIGNED_CONTEXT ( ( #34, #32, #52 ) ) REPRESENTATION_CONTEXT ( 'NONE', 'WORKASPACE' ) );
#165 = EDGE_LOOP ( 'NONE', ( #8 ) ) ;
#166 =( NAMED_UNIT ( * ) PLANE_ANGLE_UNIT ( ) SI_UNIT ( $, .RADIAN. ) );
#167 = CARTESIAN_POINT ( 'NONE',  ( 1.250000001598139600, 0.0000000000000000000, 0.0000000000000000000 ) ) ;
#168 =( NAMED_UNIT ( * ) PLANE_ANGLE_UNIT ( ) SI_UNIT ( $, .RADIAN. ) );
#169 = ADVANCED_FACE ( 'NONE', ( #254, #138 ), #82, .T. ) ;
#170 = AXIS2_PLACEMENT_3D ( 'NONE', #240, #117, #60 ) ;
#171 =( LENGTH_UNIT ( ) NAMED_UNIT ( * ) SI_UNIT ( .MILLI., .METRE. ) );
#172 = DIRECTION ( 'NONE',  ( 2.549818612203543300E-018, 0.0000000000000000000, -1.000000000000000000 ) ) ;
#173 = ADVANCED_FACE ( 'NONE', ( #183, #184 ), #85, .T. ) ;
#174 = PLANE ( 'NONE',  #70 ) ;
#175 = ADVANCED_FACE ( 'NONE', ( #127, #50 ), #174, .T. ) ;
#176 = EDGE_LOOP ( 'NONE', ( #231 ) ) ;
#177 = UNCERTAINTY_MEASURE_WITH_UNIT (LENGTH_MEASURE( 1.000000000000000100E-005 ), #219, 'distance_accuracy_value', 'NONE');
#178 = DIRECTION ( 'NONE',  ( -1.000000000000000000, -0.0000000000000000000, -0.0000000000000000000 ) ) ;
#179 = MECHANICAL_DESIGN_GEOMETRIC_PRESENTATION_REPRESENTATION (  '', ( #15 ), #164 ) ;
#180 = DIRECTION ( 'NONE',  ( -1.000000000000000000, -0.0000000000000000000, -0.0000000000000000000 ) ) ;
#181 = EDGE_LOOP ( 'NONE', ( #33 ) ) ;
#182 = CARTESIAN_POINT ( 'NONE',  ( -1.249999999999999800, 0.0000000000000000000, -85.54999999999999700 ) ) ;
#183 = FACE_BOUND ( 'NONE', #156, .T. ) ;
#184 = FACE_OUTER_BOUND ( 'NONE', #126, .T. ) ;
#185 = EDGE_LOOP ( 'NONE', ( #107 ) ) ;
#186 = AXIS2_PLACEMENT_3D ( 'NONE', #80, #47, #142 ) ;
#187 = CONICAL_SURFACE ( 'NONE', #246, 82.79999999967093100, 0.5235987750000006300 ) ;
#188 = VERTEX_POINT ( 'NONE', #69 ) ;
#189 =( NAMED_UNIT ( * ) SI_UNIT ( $, .STERADIAN. ) SOLID_ANGLE_UNIT ( ) );
#190 = PRODUCT_RELATED_PRODUCT_CATEGORY ( 'part', '', ( #221 ) ) ;
#191 = SURFACE_SIDE_STYLE ('',( #102 ) ) ;
#192 =( GEOMETRIC_REPRESENTATION_CONTEXT ( 3 ) GLOBAL_UNCERTAINTY_ASSIGNED_CONTEXT ( ( #177 ) ) GLOBAL_UNIT_ASSIGNED_CONTEXT ( ( #219, #168, #189 ) ) REPRESENTATION_CONTEXT ( 'NONE', 'WORKASPACE' ) );
#193 = AXIS2_PLACEMENT_3D ( 'NONE', #155, #178, #66 ) ;
#194 = PRESENTATION_STYLE_ASSIGNMENT (( #144 ) ) ;
#195 = APPLICATION_PROTOCOL_DEFINITION ( 'draft international standard', 'automotive_design', 1998, #135 ) ;
#196 =( NAMED_UNIT ( * ) SI_UNIT ( $, .STERADIAN. ) SOLID_ANGLE_UNIT ( ) );
#197 = CARTESIAN_POINT ( 'NONE',  ( 1.250000000000000000, 85.29575686102857900, 0.0000000000000000000 ) ) ;
#198 = CYLINDRICAL_SURFACE ( 'NONE', #16, 78.00000000000000000 ) ;
#199 = DIRECTION ( 'NONE',  ( 1.000000000000000000, -0.0000000000000000000, 0.0000000000000000000 ) ) ;
#200 = ADVANCED_BREP_SHAPE_REPRESENTATION ( 'FULLVAC JF1CF160', ( #248, #51 ), #192 ) ;
#201 = CARTESIAN_POINT ( 'NONE',  ( 1.250000001598139600, 0.0000000000000000000, 0.0000000000000000000 ) ) ;
#202 = ORIENTED_EDGE ( 'NONE', *, *, #96, .T. ) ;
#203 = FACE_OUTER_BOUND ( 'NONE', #236, .T. ) ;
#204 = CARTESIAN_POINT ( 'NONE',  ( -1.250000001598141400, 0.0000000000000000000, 0.0000000000000000000 ) ) ;
#205 = EDGE_CURVE ( 'NONE', #95, #95, #139, .T. ) ;
#206 = CLOSED_SHELL ( 'NONE', ( #220, #99, #152, #44, #237, #6, #175, #79, #169, #173 ) ) ;
#207 = EDGE_LOOP ( 'NONE', ( #48 ) ) ;
#208 = CIRCLE ( 'NONE', #235, 82.16491470422047900 ) ;
#209 = AXIS2_PLACEMENT_3D ( 'NONE', #36, #180, #17 ) ;
#210 = EDGE_CURVE ( 'NONE', #98, #98, #208, .T. ) ;
#211 = EDGE_LOOP ( 'NONE', ( #243 ) ) ;
#212 = FILL_AREA_STYLE_COLOUR ( '', #55 ) ;
#213 = CONICAL_SURFACE ( 'NONE', #134, 85.04151372152242100, 1.247910413749999400 ) ;
#214 = FILL_AREA_STYLE ('',( #212 ) ) ;
#215 = DIRECTION ( 'NONE',  ( -1.000000000000000000, -0.0000000000000000000, -0.0000000000000000000 ) ) ;
#216 = CARTESIAN_POINT ( 'NONE',  ( 0.4999999998100230800, 0.0000000000000000000, 0.0000000000000000000 ) ) ;
#217 = DIRECTION ( 'NONE',  ( 1.000000000000000000, -0.0000000000000000000, -0.0000000000000000000 ) ) ;
#218 = AXIS2_PLACEMENT_3D ( 'NONE', #216, #215, #130 ) ;
#219 =( LENGTH_UNIT ( ) NAMED_UNIT ( * ) SI_UNIT ( .MILLI., .METRE. ) );
#220 = ADVANCED_FACE ( 'NONE', ( #91, #203 ), #154, .T. ) ;
#221 = PRODUCT ( 'FULLVAC JF1CF160', 'FULLVAC JF1CF160', '', ( #128 ) ) ;
#222 = DIRECTION ( 'NONE',  ( -7.463710607719730100E-017, 1.000000000000000000, 0.0000000000000000000 ) ) ;
#223 = DIRECTION ( 'NONE',  ( 0.0000000000000000000, 0.0000000000000000000, 1.000000000000000000 ) ) ;
#224 = STYLED_ITEM ( 'NONE', ( #20 ), #200 ) ;
#225 = EDGE_CURVE ( 'NONE', #253, #253, #45, .T. ) ;
#226 = DIRECTION ( 'NONE',  ( -1.000000000000000000, -0.0000000000000000000, 0.0000000000000000000 ) ) ;
#227 = EDGE_LOOP ( 'NONE', ( #202 ) ) ;
#228 = CARTESIAN_POINT ( 'NONE',  ( 1.250000000000000000, 0.0000000000000000000, -85.54999999999999700 ) ) ;
#229 = UNCERTAINTY_MEASURE_WITH_UNIT (LENGTH_MEASURE( 1.000000000000000100E-005 ), #171, 'distance_accuracy_value', 'NONE');
#230 = CIRCLE ( 'NONE', #122, 85.04151372152242100 ) ;
#231 = ORIENTED_EDGE ( 'NONE', *, *, #35, .T. ) ;
#232 = AXIS2_PLACEMENT_3D ( 'NONE', #137, #14, #120 ) ;
#233 = PLANE ( 'NONE',  #252 ) ;
#234 = AXIS2_PLACEMENT_3D ( 'NONE', #242, #84, #157 ) ;
#235 = AXIS2_PLACEMENT_3D ( 'NONE', #12, #43, #78 ) ;
#236 = EDGE_LOOP ( 'NONE', ( #251 ) ) ;
#237 = ADVANCED_FACE ( 'NONE', ( #148, #146 ), #1, .F. ) ;
#238 = CARTESIAN_POINT ( 'NONE',  ( -1.250000000000000000, 85.29575686102857900, 0.0000000000000000000 ) ) ;
#239 = CIRCLE ( 'NONE', #232, 82.16491470422047900 ) ;
#240 = CARTESIAN_POINT ( 'NONE',  ( -1.249999999999999800, 0.0000000000000000000, 0.0000000000000000000 ) ) ;
#241 = DIRECTION ( 'NONE',  ( -1.000000000000000000, -0.0000000000000000000, -1.274909306101771900E-018 ) ) ;
#242 = CARTESIAN_POINT ( 'NONE',  ( -1.600000000000000100, 80.08245735194570600, 0.0000000000000000000 ) ) ;
#243 = ORIENTED_EDGE ( 'NONE', *, *, #87, .T. ) ;
#244 = VERTEX_POINT ( 'NONE', #228 ) ;
#245 = SURFACE_SIDE_STYLE ('',( #28 ) ) ;
#246 = AXIS2_PLACEMENT_3D ( 'NONE', #61, #46, #153 ) ;
#247 = FILL_AREA_STYLE_COLOUR ( '', #133 ) ;
#248 = MANIFOLD_SOLID_BREP ( 'Volumenk\S\vrper1', #206 ) ;
#249 = PRODUCT_DEFINITION ( 'UNKNOWN', '', #111, #162 ) ;
#250 = AXIS2_PLACEMENT_3D ( 'NONE', #204, #226, #158 ) ;
#251 = ORIENTED_EDGE ( 'NONE', *, *, #210, .T. ) ;
#252 = AXIS2_PLACEMENT_3D ( 'NONE', #75, #114, #97 ) ;
#253 = VERTEX_POINT ( 'NONE', #103 ) ;
#254 = FACE_OUTER_BOUND ( 'NONE', #68, .T. ) ;
ENDSEC;
END-ISO-10303-21;
